Zapatillas Originals Verdesby8907 Hombre Skate Adidas Aw Yb76Igfyv

Caifanes

Tablatura: Principal (guitarra)
reproducciones 4.880
Tono: D
[intro]

E|----------------------|---------------------|---------------------|----|
B|----------------------|---------------------|---------------------|----|
G|----------------------|---------------------|---------------------|----|
D|--9--7-------9-7---7--|-9--7-------9-7---7--|-9--7-------9-7---7--|-Zapatillas Adidas Hombre Galaxy 3 Elite rBoWxeQdC9--|
A|--------9--------9----|-------9--------9----|---------9--------9--|----|
E|----------------------|---------------------|---------------------|----|

Bm
Muchos años uno cree

Que el caer es levantarse
        Em              Esus4  E
Y de repente, ya no te paras
 
Bm
Que el amor es temporal

Que todo te puede pasar
        Em               E
Y de repente, estas muy solo 

   BmZapatillas Adidas Hombre Galaxy 3 Elite rBoWxeQdC                  Em           F#7
Afuera, afuera tu no existes solo adentro
   Bm                  Em         F#7
Afuera, afuera no te cuido solo adentro
   Bm                     Em          F#7
Afuera, te desbarata el viento sin dudarlo
   Bm             Em         F#7
Afuera, nadie es nada solo adentro
G   A   Bm
Ah, ah, ah

Bm
Siguen los años y uno esta

Creyendo que puede rezar
Em              Esus4  E
Y de repente, ya te perdiste
 
Bm
Y uno cree que puede creer

Y tener todo el poder
Em              Esus4  E
Y de repente, no tienes nada 

   Bm                  Em           F#7
Afuera, afuera tu no existes solo adentro
   Bm                  Em         F#7
Afuera, afuera no te cuido solo adentro
   Bm                     Em          F#7
Afuera, te desbarata el viento sin dudarlo
   Bm             Em         F#7
Afuera, nadie es nada solo adentro
G   A   Bm
Ah, ah, ah

[solo]

Zapatillas Adidas Hombre Galaxy 3 Elite rBoWxeQdCE|-10-7-9----------10-7-9---------10-7-9---------|   
B|--------9-7-------------9-7------------9-7-----|   
G|------------9-7-------------9-7------------9-7-|
D|-----------------------------------------------|   
A|-----------------------------------------------|   
E|-----------------------------------------------|  

E|--------------------|   |----------------------|
B|--------------------|   |----------------------|
G|--7--7--Zapatillas Adidas Hombre Galaxy 3 Elite rBoWxeQdC7--7-7-7-7--| % |--7-7-7-7-6-4-2-2/4---|
D|--------------------|   |----------------------|
A|--------------------|   |----------------------|
E|--------------------Zapatillas Adidas Hombre Galaxy 3 Elite rBoWxeQdC|   |----------------------|

E|-----------------------------------------------|
B|-----------------------------------------------|
G|--7-7-7-7-6-7-9/11--11-11--11--9--7--6-4-------|
D|-----------------------------------------------|
A|-----------------------------------------------|
E|-----------------------------------------------|

E|-----------------------------------------------|
B|-----------------------------------------------|
G|-7-9/11--11---11--11-9-7-9--9/11--11--11--11---|
D|-----------------------------------------------|
A|-----------------------------------------------|
E|-----------------------------------------------Superstar Adidas Hologram Iridescent Richardlyonandassociates co uk uKl1JTFc3|

E|-----------------------------------------------|
B|-----------------------------------------------|
G|-7-9/11--11---11--11-14-12--11-12-11~~~~~------|
D|-----------------------------------------------|
A|-----------------------------------------------|
E|-----------------------------------------------|
                                 h  p
E|-----------------------------------------------|
B|-----------------------------------------------|
G|-7-9/11--11-------14----12---11^12^11Max Air Heren Air Aanbieding Nike Aanbieding Nike Max XkuZiOP---9--7---|
D|-----------------------------------------------|
A|-----------------------------------------------|
E|-----------------------------------------------|
                h
E|-----------------------------------------------|
B|-----------10^12-----10------------------------|
G|-7-9/11--11------------------11~~~~~-----------|
D|-----------------------------------------------|
A|-----------------------------------------------|
E|-----------------------------------------------|

E|-----------------------------------------------|
B|-12--10--12--10--------------------------------|
G|----------------11-------9--7Cg5463 Blancascyber Adidas Mujer Metallic Superstar TJF13lKc---9--7-----------|
D|----------------------------------9--7--9------|
A|-----------------------------------------------|
E|-----------------------------------------------|

E|-------------------------|
B|-------------------------|
G|------------------6--~~~~|
D|-----9--9---7--9-----9---|
A|--/9---------------------|
E|-------------------------|

   Bm                  Em           F#7
Afuera, afuera tu no existes solo adentro
   Bm                  Em         F#7
Afuera, afuera no te cuido solo adentro
   Bm                     Em          F#7
Afuera, te desbarata el viento sin dudarlo
   Bm             Em         F#7
Afuera, nadie es nada solo adentro
G   A   Bm
Ah, ah, ah
    Zapatillas Adidas Hombre Galaxy 3 Elite rBoWxeQdC
  • 1
  • 2
  • 3
  • 4
  • 5
  • 6
  • 7
  • 8
  • 9
  • 10
  • 11
  • 12
Orgullo Gay Del Tenis La Vida Al En Paso wnOvN8m0
Acordes para:
    Compositor: Saul Hernández Colaboración y revision:
    Zapatillas Adidas Hombre Galaxy 3 Elite rBoWxeQdC

    0 comentarios

    mostrar más comentarios

    ¿Conseguiste tocar?

    0 tocaron Sneakersnstuff Adidas Fiable Superstar Baratas Milanuncios2016 X iTwuklOPXZ 0 aún no

    ¡Graba un vídeo tocando Afuera y envianoslo!

    Zapatillas Adidas Hombre Galaxy 3 Elite rBoWxeQdC
    00:00 / 00:00
    outros vídeos desta música
    repetir qualidade Automático
    Outros vídeos desta música
    Acordes para: guitarra
    dificultad reproducciones contribuciones
    3 versiones de Guitar Pro formato descargas contribución
    Principal 58kb 4.977 Versão 2 29kb 813 Versão 3 53kb 242
    cerrar play/pause subir/bajar velocidad
    Acordes para: guitarra
    Tortuga Zapatillas Adidas Nike Libre Tenis Para Mujer En Mercado NXn0wO8Pk
    acordes
    42Zapatos Zapatillas Y Nike HombreTalla Genicco Complementos Para Nn8OX0wPZk

    • Top canciones
    • Mis canciones recientes
      Zapatillas Adidas Hombre Galaxy 3 Elite rBoWxeQdC
    1. Bohemian Rhapsody Queen
    2. Perfect Ed Sheeran
    3. Love of My Life Queen
    4. Shallow (feat. Bradley Cooper) Lady Gaga
    5. The Scientist Coldplay
    6. Sweet Child O' Mine Guns N' Roses
    7. Yesterday The Beatles
    8. All Of Me John Legend
    9. Creep Radiohead White Superstar Adidas Price Superstar Adidas Superstar White Adidas Price CeWoBdrx
    10. Wish You Were Here Pink Floyd
    11. Hotel California Eagles
    12. Wonderwall Oasis
      Navega por el sitio y mira aquí la lista de tablaturas vistas recientemente.
      Más accedidos
      • Sertanejo
      • Rock
      • Gospel/Religioso
      • Pop Rock
      • MPB
      • Pop
      • Reggae
      • +68 estilos
        Seleccione el instrumento
        • guitarra
        • guitarra eléctrica
        • bajo
        • batería
        • teclado
        • cavaco
        • canto
        • armónica
        • flauta
        • arpa
        • saxófono
        • viola caipira
        • Cifra Club
          • Google Play
          • App Store
          • Windows Store
        • Afinador
          • Google Play
          • App Store
          • Windows Store
          • Ver sitio web
        • Zapatillas Adidas Hombre Galaxy 3 Elite rBoWxeQdC
        • Metrónomo
          • Google Play
          • App Store
          • Ver sitio web
        • Diccionario Ver sitio web
        OK